ISO-10303-21;
HEADER;
FILE_DESCRIPTION (( 'STEP AP203' ),
    '1' );
FILE_NAME ('BK7-LPBSC-5-1310.STEP',
    '2020-12-22T03:15:38',
    ( '' ),
    ( '' ),
    'SwSTEP 2.0',
    'SolidWorks 2020',
    '' );
FILE_SCHEMA (( 'CONFIG_CONTROL_DESIGN' ));
ENDSEC;

DATA;
#1 = LOCAL_TIME ( 11, 15, 38.00000000000000000, #203 ) ;
#2 = ORIENTED_EDGE ( 'NONE', *, *, #116, .T. ) ;
#3 = PERSON_AND_ORGANIZATION ( #20, #69 ) ;
#4 = AXIS2_PLACEMENT_3D ( 'NONE', #114, #154, #249 ) ;
#5 = CARTESIAN_POINT ( 'NONE',  ( 2.500000000000000000, 2.500000000000000888, -2.500000000000000000 ) ) ;
#6 = PLANE ( 'NONE',  #60 ) ;
#7 = ORIENTED_EDGE ( 'NONE', *, *, #116, .F. ) ;
#8 = CARTESIAN_POINT ( 'NONE',  ( -2.499999999999999556, -2.500000000000000444, -2.500000000000000000 ) ) ;
#9 = PERSON_AND_ORGANIZATION ( #20, #69 ) ;
#10 = ORIENTED_EDGE ( 'NONE', *, *, #45, .T. ) ;
#11 = APPROVAL_PERSON_ORGANIZATION ( #3, #65, #109 ) ;
#12 = APPLICATION_CONTEXT ( 'configuration controlled 3d designs of mechanical parts and assemblies' ) ;
#13 = ADVANCED_FACE ( 'NONE', ( #141 ), #256, .F. ) ;
#14 = AXIS2_PLACEMENT_3D ( 'NONE', #317, #223, #194 ) ;
#15 = UNCERTAINTY_MEASURE_WITH_UNIT (LENGTH_MEASURE( 1.000000000000000082E-05 ), #297, 'distance_accuracy_value', 'NONE');
#16 = VECTOR ( 'NONE', #48, 1000.000000000000000 ) ;
#17 = CARTESIAN_POINT ( 'NONE',  ( 0.000000000000000000, 0.000000000000000000, 2.500000000000000000 ) ) ;
#18 = CARTESIAN_POINT ( 'NONE',  ( 2.500000000000000000, 2.500000000000000888, 2.500000000000000000 ) ) ;
#19 = LINE ( 'NONE', #284, #164 ) ;
#20 = PERSON ( 'UNSPECIFIED', 'UNSPECIFIED', 'UNSPECIFIED', ('UNSPECIFIED'), ('UNSPECIFIED'), ('UNSPECIFIED') ) ;
#21 = CC_DESIGN_DATE_AND_TIME_ASSIGNMENT ( #84, #129, ( #136 ) ) ;
#22 = VECTOR ( 'NONE', #97, 1000.000000000000000 ) ;
#23 = CALENDAR_DATE ( 2020, 22, 12 ) ;
#24 = AXIS2_PLACEMENT_3D ( 'NONE', #163, #309, #285 ) ;
#25 = LINE ( 'NONE', #189, #262 ) ;
#26 = EDGE_LOOP ( 'NONE', ( #181, #7, #231, #269 ) ) ;
#27 = PERSON_AND_ORGANIZATION ( #20, #69 ) ;
#28 = LINE ( 'NONE', #215, #22 ) ;
#29 = PLANE ( 'NONE',  #14 ) ;
#30 = CARTESIAN_POINT ( 'NONE',  ( 2.500000000000000000, 2.500000000000000888, 2.500000000000000000 ) ) ;
#31 = CARTESIAN_POINT ( 'NONE',  ( 0.000000000000000000, 0.000000000000000000, 0.000000000000000000 ) ) ;
#32 = ORIENTED_EDGE ( 'NONE', *, *, #112, .F. ) ;
#33 = PERSON_AND_ORGANIZATION_ROLE ( 'classification_officer' ) ;
#34 = PLANE ( 'NONE',  #232 ) ;
#35 = EDGE_LOOP ( 'NONE', ( #132, #177, #229, #156 ) ) ;
#36 = VECTOR ( 'NONE', #296, 1000.000000000000000 ) ;
#37 = FACE_OUTER_BOUND ( 'NONE', #26, .T. ) ;
#38 = EDGE_LOOP ( 'NONE', ( #289, #206, #193 ) ) ;
#39 = EDGE_CURVE ( 'NONE', #175, #135, #19, .T. ) ;
#40 = EDGE_LOOP ( 'NONE', ( #108, #208, #195, #89 ) ) ;
#41 = ADVANCED_FACE ( 'NONE', ( #190 ), #310, .T. ) ;
#42 = CARTESIAN_POINT ( 'NONE',  ( 2.500000000000000444, -2.500000000000000444, 2.500000000000000000 ) ) ;
#43 = LOCAL_TIME ( 11, 15, 38.00000000000000000, #261 ) ;
#44 = ORIENTED_EDGE ( 'NONE', *, *, #185, .F. ) ;
#45 = EDGE_CURVE ( 'NONE', #67, #273, #140, .T. ) ;
#46 = ORIENTED_EDGE ( 'NONE', *, *, #92, .F. ) ;
#47 = PERSON_AND_ORGANIZATION ( #20, #69 ) ;
#48 = DIRECTION ( 'NONE',  ( 3.469446951953614189E-16, 1.000000000000000000, -0.000000000000000000 ) ) ;
#49 = DIRECTION ( 'NONE',  ( -0.000000000000000000, 0.000000000000000000, -1.000000000000000000 ) ) ;
#50 = CARTESIAN_POINT ( 'NONE',  ( -2.500000000000000000, 2.500000000000001776, 2.500000000000000000 ) ) ;
#51 = EDGE_CURVE ( 'NONE', #83, #135, #28, .T. ) ;
#52 = VERTEX_POINT ( 'NONE', #75 ) ;
#53 = DATE_AND_TIME ( #80, #43 ) ;
#54 = CARTESIAN_POINT ( 'NONE',  ( -2.499999999999999556, -2.500000000000000444, -2.500000000000000000 ) ) ;
#55 = DIRECTION ( 'NONE',  ( 0.000000000000000000, 0.000000000000000000, 1.000000000000000000 ) ) ;
#56 = VERTEX_POINT ( 'NONE', #306 ) ;
#57 = SHAPE_DEFINITION_REPRESENTATION ( #71, #87 ) ;
#58 = CARTESIAN_POINT ( 'NONE',  ( 2.500000000000000000, 2.500000000000000888, 2.500000000000000000 ) ) ;
#59 = LINE ( 'NONE', #107, #155 ) ;
#60 = AXIS2_PLACEMENT_3D ( 'NONE', #82, #171, #265 ) ;
#61 = VERTEX_POINT ( 'NONE', #94 ) ;
#62 = DIRECTION ( 'NONE',  ( 1.000000000000000000, 0.000000000000000000, 0.000000000000000000 ) ) ;
#63 = CC_DESIGN_APPROVAL ( #255, ( #282 ) ) ;
#64 = VECTOR ( 'NONE', #49, 1000.000000000000000 ) ;
#65 = APPROVAL ( #274, 'UNSPECIFIED' ) ;
#66 = CC_DESIGN_PERSON_AND_ORGANIZATION_ASSIGNMENT ( #248, #176, ( #233 ) ) ;
#67 = VERTEX_POINT ( 'NONE', #42 ) ;
#68 = PLANE ( 'NONE',  #24 ) ;
#69 = ORGANIZATION ( 'UNSPECIFIED', 'UNSPECIFIED', '' ) ;
#70 = DIRECTION ( 'NONE',  ( -0.000000000000000000, -0.000000000000000000, -1.000000000000000000 ) ) ;
#71 = PRODUCT_DEFINITION_SHAPE ( 'NONE', 'NONE',  #282 ) ;
#72 = LINE ( 'NONE', #165, #283 ) ;
#73 = MANIFOLD_SOLID_BREP ( '¾µÏ', #214 ) ;
#74 = DATE_AND_TIME ( #23, #235 ) ;
#75 = CARTESIAN_POINT ( 'NONE',  ( -2.500000000000000888, -2.499999999999998224, 2.500000000000000000 ) ) ;
#76 = DIRECTION ( 'NONE',  ( -0.000000000000000000, 0.000000000000000000, -1.000000000000000000 ) ) ;
#77 = DIRECTION ( 'NONE',  ( 2.220446049250312588E-16, 1.000000000000000000, 0.000000000000000000 ) ) ;
#78 = FACE_OUTER_BOUND ( 'NONE', #152, .T. ) ;
#79 = ORIENTED_EDGE ( 'NONE', *, *, #264, .F. ) ;
#80 = CALENDAR_DATE ( 2020, 22, 12 ) ;
#81 = CARTESIAN_POINT ( 'NONE',  ( -2.500000000000000888, -2.499999999999998224, -2.500000000000000000 ) ) ;
#82 = CARTESIAN_POINT ( 'NONE',  ( -2.499999999999999556, -2.500000000000000444, 2.500000000000000000 ) ) ;
#83 = VERTEX_POINT ( 'NONE', #161 ) ;
#84 = DATE_AND_TIME ( #291, #224 ) ;
#85 = AXIS2_PLACEMENT_3D ( 'NONE', #17, #212, #122 ) ;
#86 = ORIENTED_EDGE ( 'NONE', *, *, #143, .T. ) ;
#87 = ADVANCED_BREP_SHAPE_REPRESENTATION ( 'BK7-LPBSC-5-1310', ( #180, #73, #237 ), #88 ) ;
#88 =( GEOMETRIC_REPRESENTATION_CONTEXT ( 3 ) GLOBAL_UNCERTAINTY_ASSIGNED_CONTEXT ( ( #15 ) ) GLOBAL_UNIT_ASSIGNED_CONTEXT ( ( #297, #268, #151 ) ) REPRESENTATION_CONTEXT ( 'NONE', 'WORKASPACE' ) );
#89 = ORIENTED_EDGE ( 'NONE', *, *, #280, .T. ) ;
#90 = EDGE_CURVE ( 'NONE', #314, #252, #260, .T. ) ;
#91 = LOCAL_TIME ( 11, 15, 38.00000000000000000, #288 ) ;
#92 = EDGE_CURVE ( 'NONE', #273, #175, #72, .T. ) ;
#93 = CLOSED_SHELL ( 'NONE', ( #124, #311, #137, #272, #201 ) ) ;
#94 = CARTESIAN_POINT ( 'NONE',  ( 2.500000000000000000, 2.500000000000000888, -2.500000000000000000 ) ) ;
#95 = FACE_OUTER_BOUND ( 'NONE', #277, .T. ) ;
#96 = DIRECTION ( 'NONE',  ( 3.469446951953614189E-16, 1.000000000000000000, -0.000000000000000000 ) ) ;
#97 = DIRECTION ( 'NONE',  ( -0.7071067811865476838, -0.7071067811865474617, 0.000000000000000000 ) ) ;
#98 = PRODUCT ( 'BK7-LPBSC-5-1310', 'BK7-LPBSC-5-1310', '', ( #276 ) ) ;
#99 = CALENDAR_DATE ( 2020, 22, 12 ) ;
#100 = CARTESIAN_POINT ( 'NONE',  ( 2.500000000000002220, 2.499999999999999556, 2.500000000000000000 ) ) ;
#101 = CARTESIAN_POINT ( 'NONE',  ( -2.500000000000000000, 2.500000000000001776, -2.500000000000000000 ) ) ;
#102 = EDGE_CURVE ( 'NONE', #148, #52, #170, .T. ) ;
#103 = DIRECTION ( 'NONE',  ( -1.000000000000000000, 3.469446951953614189E-16, 0.000000000000000000 ) ) ;
#104 = ORIENTED_EDGE ( 'NONE', *, *, #143, .F. ) ;
#105 = CALENDAR_DATE ( 2020, 22, 12 ) ;
#106 = LINE ( 'NONE', #200, #36 ) ;
#107 = CARTESIAN_POINT ( 'NONE',  ( 2.500000000000000444, -2.500000000000000444, 2.500000000000000000 ) ) ;
#108 = ORIENTED_EDGE ( 'NONE', *, *, #221, .F. ) ;
#109 = APPROVAL_ROLE ( '' ) ;
#110 = CARTESIAN_POINT ( 'NONE',  ( 2.500000000000000000, 2.500000000000000888, 2.500000000000000000 ) ) ;
#111 = LINE ( 'NONE', #290, #160 ) ;
#112 = EDGE_CURVE ( 'NONE', #56, #83, #168, .T. ) ;
#113 = VERTEX_POINT ( 'NONE', #121 ) ;
#114 = CARTESIAN_POINT ( 'NONE',  ( 0.000000000000000000, 0.000000000000000000, -2.500000000000000000 ) ) ;
#115 = VECTOR ( 'NONE', #238, 1000.000000000000000 ) ;
#116 = EDGE_CURVE ( 'NONE', #273, #83, #25, .T. ) ;
#117 = APPLICATION_CONTEXT ( 'configuration controlled 3d designs of mechanical parts and assemblies' ) ;
#118 = VECTOR ( 'NONE', #320, 1000.000000000000000 ) ;
#119 = EDGE_CURVE ( 'NONE', #148, #61, #308, .T. ) ;
#120 = CC_DESIGN_PERSON_AND_ORGANIZATION_ASSIGNMENT ( #27, #226, ( #233 ) ) ;
#121 = CARTESIAN_POINT ( 'NONE',  ( -2.500000000000000888, -2.499999999999998224, -2.500000000000000000 ) ) ;
#122 = DIRECTION ( 'NONE',  ( 2.220446049250312588E-16, 1.000000000000000000, 0.000000000000000000 ) ) ;
#123 = APPROVAL_ROLE ( '' ) ;
#124 = ADVANCED_FACE ( 'NONE', ( #95 ), #68, .F. ) ;
#125 = LINE ( 'NONE', #134, #251 ) ;
#126 = DIRECTION ( 'NONE',  ( -9.714451465470109868E-17, -1.000000000000000000, 0.000000000000000000 ) ) ;
#127 = DIRECTION ( 'NONE',  ( -0.000000000000000000, -0.000000000000000000, -1.000000000000000000 ) ) ;
#128 = ORIENTED_EDGE ( 'NONE', *, *, #221, .T. ) ;
#129 = DATE_TIME_ROLE ( 'classification_date' ) ;
#130 = CARTESIAN_POINT ( 'NONE',  ( 2.500000000000002220, 2.499999999999999556, 2.500000000000000000 ) ) ;
#131 = AXIS2_PLACEMENT_3D ( 'NONE', #172, #301, #62 ) ;
#132 = ORIENTED_EDGE ( 'NONE', *, *, #158, .F. ) ;
#133 = PLANE ( 'NONE',  #4 ) ;
#134 = CARTESIAN_POINT ( 'NONE',  ( 2.500000000000000000, 2.500000000000000888, -2.500000000000000000 ) ) ;
#135 = VERTEX_POINT ( 'NONE', #54 ) ;
#136 = SECURITY_CLASSIFICATION ( '', '', #312 ) ;
#137 = ADVANCED_FACE ( 'NONE', ( #37 ), #34, .F. ) ;
#138 = DIRECTION ( 'NONE',  ( -0.7071067811865476838, -0.7071067811865474617, 0.000000000000000000 ) ) ;
#139 = EDGE_CURVE ( 'NONE', #252, #61, #219, .T. ) ;
#140 = LINE ( 'NONE', #100, #159 ) ;
#141 = FACE_OUTER_BOUND ( 'NONE', #40, .T. ) ;
#142 = ORIENTED_EDGE ( 'NONE', *, *, #39, .F. ) ;
#143 = EDGE_CURVE ( 'NONE', #175, #67, #292, .T. ) ;
#144 = VECTOR ( 'NONE', #263, 1000.000000000000000 ) ;
#145 = DIRECTION ( 'NONE',  ( -0.7071067811865473507, 0.7071067811865476838, 0.000000000000000000 ) ) ;
#146 = APPROVAL_STATUS ( 'not_yet_approved' ) ;
#147 = PRODUCT_RELATED_PRODUCT_CATEGORY ( 'detail', '', ( #98 ) ) ;
#148 = VERTEX_POINT ( 'NONE', #58 ) ;
#149 = COORDINATED_UNIVERSAL_TIME_OFFSET ( 8, 0, .AHEAD. ) ;
#150 = LINE ( 'NONE', #110, #191 ) ;
#151 =( NAMED_UNIT ( * ) SI_UNIT ( $, .STERADIAN. ) SOLID_ANGLE_UNIT ( ) );
#152 = EDGE_LOOP ( 'NONE', ( #258, #86, #10 ) ) ;
#153 = COORDINATED_UNIVERSAL_TIME_OFFSET ( 8, 0, .AHEAD. ) ;
#154 = DIRECTION ( 'NONE',  ( 0.000000000000000000, -0.000000000000000000, 1.000000000000000000 ) ) ;
#155 = VECTOR ( 'NONE', #127, 1000.000000000000000 ) ;
#156 = ORIENTED_EDGE ( 'NONE', *, *, #90, .T. ) ;
#157 = ORIENTED_EDGE ( 'NONE', *, *, #119, .T. ) ;
#158 = EDGE_CURVE ( 'NONE', #113, #252, #204, .T. ) ;
#159 = VECTOR ( 'NONE', #96, 1000.000000000000000 ) ;
#160 = VECTOR ( 'NONE', #76, 1000.000000000000000 ) ;
#161 = CARTESIAN_POINT ( 'NONE',  ( 2.500000000000002220, 2.499999999999999556, -2.500000000000000000 ) ) ;
#162 = ADVANCED_FACE ( 'NONE', ( #271 ), #133, .F. ) ;
#163 = CARTESIAN_POINT ( 'NONE',  ( 2.500000000000002220, 2.499999999999999556, 2.500000000000000000 ) ) ;
#164 = VECTOR ( 'NONE', #70, 1000.000000000000000 ) ;
#165 = CARTESIAN_POINT ( 'NONE',  ( 2.500000000000002220, 2.499999999999999556, 2.500000000000000000 ) ) ;
#166 = AXIS2_PLACEMENT_3D ( 'NONE', #30, #126, #222 ) ;
#167 = CC_DESIGN_PERSON_AND_ORGANIZATION_ASSIGNMENT ( #246, #318, ( #282 ) ) ;
#168 = LINE ( 'NONE', #236, #16 ) ;
#169 = PERSON_AND_ORGANIZATION ( #20, #69 ) ;
#170 = LINE ( 'NONE', #18, #144 ) ;
#171 = DIRECTION ( 'NONE',  ( 0.000000000000000000, 1.000000000000000000, 0.000000000000000000 ) ) ;
#172 = CARTESIAN_POINT ( 'NONE',  ( 0.000000000000000000, 0.000000000000000000, -2.500000000000000000 ) ) ;
#173 = DIRECTION ( 'NONE',  ( 1.000000000000000000, -4.440892098500625176E-16, 0.000000000000000000 ) ) ;
#174 = APPROVAL ( #146, 'UNSPECIFIED' ) ;
#175 = VERTEX_POINT ( 'NONE', #230 ) ;
#176 = PERSON_AND_ORGANIZATION_ROLE ( 'creator' ) ;
#177 = ORIENTED_EDGE ( 'NONE', *, *, #280, .F. ) ;
#178 = APPROVAL_DATE_TIME ( #259, #65 ) ;
#179 = CARTESIAN_POINT ( 'NONE',  ( -2.499999999999999556, -2.500000000000000444, 2.500000000000000000 ) ) ;
#180 = MANIFOLD_SOLID_BREP ( 'Í¹Ì¨-À', #93 ) ;
#181 = ORIENTED_EDGE ( 'NONE', *, *, #112, .T. ) ;
#182 = CC_DESIGN_APPROVAL ( #65, ( #136 ) ) ;
#183 = PLANE ( 'NONE',  #131 ) ;
#184 = ORIENTED_EDGE ( 'NONE', *, *, #39, .T. ) ;
#185 = EDGE_CURVE ( 'NONE', #135, #56, #278, .T. ) ;
#186 = VECTOR ( 'NONE', #316, 1000.000000000000000 ) ;
#187 = CC_DESIGN_SECURITY_CLASSIFICATION ( #136, ( #233 ) ) ;
#188 = EDGE_CURVE ( 'NONE', #314, #148, #150, .T. ) ;
#189 = CARTESIAN_POINT ( 'NONE',  ( 2.500000000000002220, 2.499999999999999556, 2.500000000000000000 ) ) ;
#190 = FACE_OUTER_BOUND ( 'NONE', #38, .T. ) ;
#191 = VECTOR ( 'NONE', #207, 1000.000000000000000 ) ;
#192 = DIRECTION ( 'NONE',  ( 0.7071067811865476838, 0.7071067811865473507, 0.000000000000000000 ) ) ;
#193 = ORIENTED_EDGE ( 'NONE', *, *, #211, .F. ) ;
#194 = DIRECTION ( 'NONE',  ( 1.000000000000000000, 0.000000000000000000, 0.000000000000000000 ) ) ;
#195 = ORIENTED_EDGE ( 'NONE', *, *, #102, .T. ) ;
#196 = PERSON_AND_ORGANIZATION_ROLE ( 'design_owner' ) ;
#197 = AXIS2_PLACEMENT_3D ( 'NONE', #257, #145, #192 ) ;
#198 = ORIENTED_EDGE ( 'NONE', *, *, #51, .F. ) ;
#199 = DATE_TIME_ROLE ( 'creation_date' ) ;
#200 = CARTESIAN_POINT ( 'NONE',  ( -2.500000000000000888, -2.499999999999998224, 2.500000000000000000 ) ) ;
#201 = ADVANCED_FACE ( 'NONE', ( #303 ), #183, .F. ) ;
#202 = FACE_OUTER_BOUND ( 'NONE', #313, .T. ) ;
#203 = COORDINATED_UNIVERSAL_TIME_OFFSET ( 8, 0, .AHEAD. ) ;
#204 = LINE ( 'NONE', #81, #281 ) ;
#205 = CARTESIAN_POINT ( 'NONE',  ( -2.500000000000000888, -2.499999999999998224, 2.500000000000000000 ) ) ;
#206 = ORIENTED_EDGE ( 'NONE', *, *, #188, .F. ) ;
#207 = DIRECTION ( 'NONE',  ( 1.000000000000000000, -9.714451465470109868E-17, 0.000000000000000000 ) ) ;
#208 = ORIENTED_EDGE ( 'NONE', *, *, #119, .F. ) ;
#209 = APPROVAL_PERSON_ORGANIZATION ( #295, #255, #300 ) ;
#210 = ADVANCED_FACE ( 'NONE', ( #267 ), #244, .F. ) ;
#211 = EDGE_CURVE ( 'NONE', #52, #314, #106, .T. ) ;
#212 = DIRECTION ( 'NONE',  ( 0.000000000000000000, -0.000000000000000000, 1.000000000000000000 ) ) ;
#213 = DIRECTION ( 'NONE',  ( -0.000000000000000000, -0.000000000000000000, -1.000000000000000000 ) ) ;
#214 = CLOSED_SHELL ( 'NONE', ( #13, #319, #210, #41, #162 ) ) ;
#215 = CARTESIAN_POINT ( 'NONE',  ( 2.500000000000002220, 2.499999999999999556, -2.500000000000000000 ) ) ;
#216 = APPROVAL_DATE_TIME ( #53, #174 ) ;
#217 = CARTESIAN_POINT ( 'NONE',  ( 2.500000000000000000, 2.500000000000000888, 2.500000000000000000 ) ) ;
#218 = PLANE ( 'NONE',  #234 ) ;
#219 = LINE ( 'NONE', #5, #266 ) ;
#220 = DIRECTION ( 'NONE',  ( -0.7071067811865476838, -0.7071067811865474617, 0.000000000000000000 ) ) ;
#221 = EDGE_CURVE ( 'NONE', #61, #113, #125, .T. ) ;
#222 = DIRECTION ( 'NONE',  ( -1.000000000000000000, 9.714451465470109868E-17, 0.000000000000000000 ) ) ;
#223 = DIRECTION ( 'NONE',  ( -0.000000000000000000, 0.000000000000000000, 1.000000000000000000 ) ) ;
#224 = LOCAL_TIME ( 11, 15, 38.00000000000000000, #149 ) ;
#225 = ORIENTED_EDGE ( 'NONE', *, *, #139, .F. ) ;
#226 = PERSON_AND_ORGANIZATION_ROLE ( 'design_supplier' ) ;
#227 = DIRECTION ( 'NONE',  ( -3.469446951953614189E-16, -1.000000000000000000, 0.000000000000000000 ) ) ;
#228 = CARTESIAN_POINT ( 'NONE',  ( 2.500000000000002220, 2.499999999999999556, 2.500000000000000000 ) ) ;
#229 = ORIENTED_EDGE ( 'NONE', *, *, #211, .T. ) ;
#230 = CARTESIAN_POINT ( 'NONE',  ( -2.499999999999999556, -2.500000000000000444, 2.500000000000000000 ) ) ;
#231 = ORIENTED_EDGE ( 'NONE', *, *, #45, .F. ) ;
#232 = AXIS2_PLACEMENT_3D ( 'NONE', #130, #103, #227 ) ;
#233 = PRODUCT_DEFINITION_FORMATION_WITH_SPECIFIED_SOURCE ( 'ANY', '', #98, .NOT_KNOWN. ) ;
#234 = AXIS2_PLACEMENT_3D ( 'NONE', #205, #173, #321 ) ;
#235 = LOCAL_TIME ( 11, 15, 38.00000000000000000, #153 ) ;
#236 = CARTESIAN_POINT ( 'NONE',  ( 2.500000000000002220, 2.499999999999999556, -2.500000000000000000 ) ) ;
#237 = AXIS2_PLACEMENT_3D ( 'NONE', #31, #55, #250 ) ;
#238 = DIRECTION ( 'NONE',  ( -0.000000000000000000, 0.000000000000000000, -1.000000000000000000 ) ) ;
#239 = ORIENTED_EDGE ( 'NONE', *, *, #188, .T. ) ;
#240 = APPROVAL_STATUS ( 'not_yet_approved' ) ;
#241 = ORIENTED_EDGE ( 'NONE', *, *, #90, .F. ) ;
#242 = DATE_AND_TIME ( #105, #91 ) ;
#243 = EDGE_LOOP ( 'NONE', ( #198, #32, #44 ) ) ;
#244 = PLANE ( 'NONE',  #166 ) ;
#245 = EDGE_LOOP ( 'NONE', ( #225, #241, #239, #157 ) ) ;
#246 = PERSON_AND_ORGANIZATION ( #20, #69 ) ;
#247 = APPLICATION_PROTOCOL_DEFINITION ( 'international standard', 'config_control_design', 1994, #117 ) ;
#248 = PERSON_AND_ORGANIZATION ( #20, #69 ) ;
#249 = DIRECTION ( 'NONE',  ( 2.220446049250312588E-16, 1.000000000000000000, 0.000000000000000000 ) ) ;
#250 = DIRECTION ( 'NONE',  ( 1.000000000000000000, 0.000000000000000000, 0.000000000000000000 ) ) ;
#251 = VECTOR ( 'NONE', #220, 1000.000000000000000 ) ;
#252 = VERTEX_POINT ( 'NONE', #101 ) ;
#253 = ORIENTED_EDGE ( 'NONE', *, *, #185, .T. ) ;
#254 = DESIGN_CONTEXT ( 'detailed design', #12, 'design' ) ;
#255 = APPROVAL ( #240, 'UNSPECIFIED' ) ;
#256 = PLANE ( 'NONE',  #197 ) ;
#257 = CARTESIAN_POINT ( 'NONE',  ( 2.500000000000000000, 2.500000000000000888, 2.500000000000000000 ) ) ;
#258 = ORIENTED_EDGE ( 'NONE', *, *, #92, .T. ) ;
#259 = DATE_AND_TIME ( #99, #1 ) ;
#260 = LINE ( 'NONE', #286, #115 ) ;
#261 = COORDINATED_UNIVERSAL_TIME_OFFSET ( 8, 0, .AHEAD. ) ;
#262 = VECTOR ( 'NONE', #213, 1000.000000000000000 ) ;
#263 = DIRECTION ( 'NONE',  ( -0.7071067811865476838, -0.7071067811865474617, 0.000000000000000000 ) ) ;
#264 = EDGE_CURVE ( 'NONE', #67, #56, #59, .T. ) ;
#265 = DIRECTION ( 'NONE',  ( 0.000000000000000000, -0.000000000000000000, 1.000000000000000000 ) ) ;
#266 = VECTOR ( 'NONE', #275, 1000.000000000000000 ) ;
#267 = FACE_OUTER_BOUND ( 'NONE', #245, .T. ) ;
#268 =( NAMED_UNIT ( * ) PLANE_ANGLE_UNIT ( ) SI_UNIT ( $, .RADIAN. ) );
#269 = ORIENTED_EDGE ( 'NONE', *, *, #264, .T. ) ;
#270 = APPLICATION_PROTOCOL_DEFINITION ( 'international standard', 'config_control_design', 1994, #12 ) ;
#271 = FACE_OUTER_BOUND ( 'NONE', #279, .T. ) ;
#272 = ADVANCED_FACE ( 'NONE', ( #78 ), #29, .T. ) ;
#273 = VERTEX_POINT ( 'NONE', #228 ) ;
#274 = APPROVAL_STATUS ( 'not_yet_approved' ) ;
#275 = DIRECTION ( 'NONE',  ( 1.000000000000000000, -9.714451465470109868E-17, 0.000000000000000000 ) ) ;
#276 = MECHANICAL_CONTEXT ( 'NONE', #117, 'mechanical' ) ;
#277 = EDGE_LOOP ( 'NONE', ( #304, #142, #46, #2 ) ) ;
#278 = LINE ( 'NONE', #8, #186 ) ;
#279 = EDGE_LOOP ( 'NONE', ( #128, #299, #302 ) ) ;
#280 = EDGE_CURVE ( 'NONE', #52, #113, #111, .T. ) ;
#281 = VECTOR ( 'NONE', #77, 1000.000000000000000 ) ;
#282 = PRODUCT_DEFINITION ( 'UNKNOWN', '', #233, #254 ) ;
#283 = VECTOR ( 'NONE', #138, 1000.000000000000000 ) ;
#284 = CARTESIAN_POINT ( 'NONE',  ( -2.499999999999999556, -2.500000000000000444, 2.500000000000000000 ) ) ;
#285 = DIRECTION ( 'NONE',  ( 0.7071067811865476838, 0.7071067811865474617, 0.000000000000000000 ) ) ;
#286 = CARTESIAN_POINT ( 'NONE',  ( -2.500000000000000000, 2.500000000000001776, 2.500000000000000000 ) ) ;
#287 = CC_DESIGN_DATE_AND_TIME_ASSIGNMENT ( #74, #199, ( #282 ) ) ;
#288 = COORDINATED_UNIVERSAL_TIME_OFFSET ( 8, 0, .AHEAD. ) ;
#289 = ORIENTED_EDGE ( 'NONE', *, *, #102, .F. ) ;
#290 = CARTESIAN_POINT ( 'NONE',  ( -2.500000000000000888, -2.499999999999998224, 2.500000000000000000 ) ) ;
#291 = CALENDAR_DATE ( 2020, 22, 12 ) ;
#292 = LINE ( 'NONE', #179, #118 ) ;
#293 = FACE_OUTER_BOUND ( 'NONE', #35, .T. ) ;
#294 = CC_DESIGN_APPROVAL ( #174, ( #233 ) ) ;
#295 = PERSON_AND_ORGANIZATION ( #20, #69 ) ;
#296 = DIRECTION ( 'NONE',  ( 2.220446049250312588E-16, 1.000000000000000000, 0.000000000000000000 ) ) ;
#297 =( LENGTH_UNIT ( ) NAMED_UNIT ( * ) SI_UNIT ( .MILLI., .METRE. ) );
#298 = CC_DESIGN_PERSON_AND_ORGANIZATION_ASSIGNMENT ( #47, #33, ( #136 ) ) ;
#299 = ORIENTED_EDGE ( 'NONE', *, *, #158, .T. ) ;
#300 = APPROVAL_ROLE ( '' ) ;
#301 = DIRECTION ( 'NONE',  ( -0.000000000000000000, 0.000000000000000000, 1.000000000000000000 ) ) ;
#302 = ORIENTED_EDGE ( 'NONE', *, *, #139, .T. ) ;
#303 = FACE_OUTER_BOUND ( 'NONE', #243, .T. ) ;
#304 = ORIENTED_EDGE ( 'NONE', *, *, #51, .T. ) ;
#305 = APPROVAL_PERSON_ORGANIZATION ( #169, #174, #123 ) ;
#306 = CARTESIAN_POINT ( 'NONE',  ( 2.500000000000000444, -2.500000000000000444, -2.500000000000000000 ) ) ;
#307 = CC_DESIGN_PERSON_AND_ORGANIZATION_ASSIGNMENT ( #9, #196, ( #98 ) ) ;
#308 = LINE ( 'NONE', #217, #64 ) ;
#309 = DIRECTION ( 'NONE',  ( 0.7071067811865474617, -0.7071067811865476838, 0.000000000000000000 ) ) ;
#310 = PLANE ( 'NONE',  #85 ) ;
#311 = ADVANCED_FACE ( 'NONE', ( #202 ), #6, .F. ) ;
#312 = SECURITY_CLASSIFICATION_LEVEL ( 'unclassified' ) ;
#313 = EDGE_LOOP ( 'NONE', ( #253, #79, #104, #184 ) ) ;
#314 = VERTEX_POINT ( 'NONE', #50 ) ;
#315 = APPROVAL_DATE_TIME ( #242, #255 ) ;
#316 = DIRECTION ( 'NONE',  ( 1.000000000000000000, 0.000000000000000000, 0.000000000000000000 ) ) ;
#317 = CARTESIAN_POINT ( 'NONE',  ( 0.000000000000000000, 0.000000000000000000, 2.500000000000000000 ) ) ;
#318 = PERSON_AND_ORGANIZATION_ROLE ( 'creator' ) ;
#319 = ADVANCED_FACE ( 'NONE', ( #293 ), #218, .F. ) ;
#320 = DIRECTION ( 'NONE',  ( 1.000000000000000000, 0.000000000000000000, 0.000000000000000000 ) ) ;
#321 = DIRECTION ( 'NONE',  ( 0.000000000000000000, 0.000000000000000000, 1.000000000000000000 ) ) ;
ENDSEC;
END-ISO-10303-21;
